ISO-10303-21;
HEADER;
FILE_DESCRIPTION (( 'STEP AP203' ),
    '1' );
FILE_NAME ('N-SF1-BPBSC-25.4-1200-1600.STEP',
    '2021-01-05T02:15:31',
    ( '' ),
    ( '' ),
    'SwSTEP 2.0',
    'SolidWorks 2020',
    '' );
FILE_SCHEMA (( 'CONFIG_CONTROL_DESIGN' ));
ENDSEC;

DATA;
#1 = AXIS2_PLACEMENT_3D ( 'NONE', #155, #135, #234 ) ;
#2 =( NAMED_UNIT ( * ) SI_UNIT ( $, .STERADIAN. ) SOLID_ANGLE_UNIT ( ) );
#3 = CARTESIAN_POINT ( 'NONE',  ( 12.69999999999999574, 12.69999999999999574, 12.69999999999999929 ) ) ;
#4 = DATE_AND_TIME ( #207, #50 ) ;
#5 = ADVANCED_FACE ( 'NONE', ( #136 ), #209, .F. ) ;
#6 = ORIENTED_EDGE ( 'NONE', *, *, #176, .T. ) ;
#7 = PERSON_AND_ORGANIZATION ( #111, #27 ) ;
#8 = VERTEX_POINT ( 'NONE', #239 ) ;
#9 = APPROVAL_STATUS ( 'not_yet_approved' ) ;
#10 = DATE_AND_TIME ( #282, #109 ) ;
#11 = DIRECTION ( 'NONE',  ( -0.7071067811865475727, -0.7071067811865475727, 0.000000000000000000 ) ) ;
#12 = DIRECTION ( 'NONE',  ( 0.7071067811865475727, 0.7071067811865475727, 0.000000000000000000 ) ) ;
#13 = LINE ( 'NONE', #118, #71 ) ;
#14 =( GEOMETRIC_REPRESENTATION_CONTEXT ( 3 ) GLOBAL_UNCERTAINTY_ASSIGNED_CONTEXT ( ( #113 ) ) GLOBAL_UNIT_ASSIGNED_CONTEXT ( ( #20, #126, #2 ) ) REPRESENTATION_CONTEXT ( 'NONE', 'WORKASPACE' ) );
#15 = CARTESIAN_POINT ( 'NONE',  ( 12.69999999999999929, 12.69999999999999929, 12.69999999999999929 ) ) ;
#16 = ORIENTED_EDGE ( 'NONE', *, *, #45, .T. ) ;
#17 = EDGE_CURVE ( 'NONE', #19, #95, #108, .T. ) ;
#18 = DIRECTION ( 'NONE',  ( 0.000000000000000000, 0.000000000000000000, 1.000000000000000000 ) ) ;
#19 = VERTEX_POINT ( 'NONE', #307 ) ;
#20 =( LENGTH_UNIT ( ) NAMED_UNIT ( * ) SI_UNIT ( .MILLI., .METRE. ) );
#21 = PRODUCT_DEFINITION ( 'UNKNOWN', '', #148, #100 ) ;
#22 = EDGE_LOOP ( 'NONE', ( #128, #246, #99, #301 ) ) ;
#23 = PERSON_AND_ORGANIZATION_ROLE ( 'design_owner' ) ;
#24 = ORIENTED_EDGE ( 'NONE', *, *, #315, .F. ) ;
#25 = CARTESIAN_POINT ( 'NONE',  ( -12.69999999999999574, -12.69999999999999396, -12.69999999999999929 ) ) ;
#26 = LINE ( 'NONE', #165, #238 ) ;
#27 = ORGANIZATION ( 'UNSPECIFIED', 'UNSPECIFIED', '' ) ;
#28 = CARTESIAN_POINT ( 'NONE',  ( 0.000000000000000000, 0.000000000000000000, 12.69999999999999929 ) ) ;
#29 = ORIENTED_EDGE ( 'NONE', *, *, #267, .T. ) ;
#30 = EDGE_CURVE ( 'NONE', #283, #261, #188, .T. ) ;
#31 = SECURITY_CLASSIFICATION_LEVEL ( 'unclassified' ) ;
#32 = DATE_TIME_ROLE ( 'creation_date' ) ;
#33 = APPROVAL_DATE_TIME ( #86, #206 ) ;
#34 = CALENDAR_DATE ( 2021, 5, 1 ) ;
#35 = DIRECTION ( 'NONE',  ( -0.7071067811865474617, -0.7071067811865474617, 0.000000000000000000 ) ) ;
#36 = CC_DESIGN_PERSON_AND_ORGANIZATION_ASSIGNMENT ( #74, #23, ( #73 ) ) ;
#37 = LINE ( 'NONE', #144, #92 ) ;
#38 = VECTOR ( 'NONE', #103, 1000.000000000000000 ) ;
#39 = CARTESIAN_POINT ( 'NONE',  ( 12.69999999999999574, 12.69999999999999574, 12.69999999999999929 ) ) ;
#40 = FACE_OUTER_BOUND ( 'NONE', #202, .T. ) ;
#41 = VECTOR ( 'NONE', #119, 1000.000000000000000 ) ;
#42 = CARTESIAN_POINT ( 'NONE',  ( 12.69999999999999929, 12.69999999999999929, -12.69999999999999929 ) ) ;
#43 = APPROVAL_PERSON_ORGANIZATION ( #264, #206, #166 ) ;
#44 = ORIENTED_EDGE ( 'NONE', *, *, #67, .T. ) ;
#45 = EDGE_CURVE ( 'NONE', #156, #192, #309, .T. ) ;
#46 = FACE_OUTER_BOUND ( 'NONE', #205, .T. ) ;
#47 = EDGE_LOOP ( 'NONE', ( #178, #48, #293 ) ) ;
#48 = ORIENTED_EDGE ( 'NONE', *, *, #67, .F. ) ;
#49 = VERTEX_POINT ( 'NONE', #184 ) ;
#50 = LOCAL_TIME ( 10, 15, 31.00000000000000000, #228 ) ;
#51 = APPLICATION_PROTOCOL_DEFINITION ( 'international standard', 'config_control_design', 1994, #134 ) ;
#52 = DIRECTION ( 'NONE',  ( 0.000000000000000000, 0.000000000000000000, 1.000000000000000000 ) ) ;
#53 = PLANE ( 'NONE',  #218 ) ;
#54 = PLANE ( 'NONE',  #277 ) ;
#55 = ADVANCED_FACE ( 'NONE', ( #211 ), #133, .F. ) ;
#56 = ORIENTED_EDGE ( 'NONE', *, *, #245, .T. ) ;
#57 = VECTOR ( 'NONE', #173, 1000.000000000000114 ) ;
#58 = DIRECTION ( 'NONE',  ( -0.000000000000000000, 1.000000000000000000, -0.000000000000000000 ) ) ;
#59 = AXIS2_PLACEMENT_3D ( 'NONE', #252, #94, #290 ) ;
#60 = PERSON_AND_ORGANIZATION_ROLE ( 'classification_officer' ) ;
#61 = LOCAL_TIME ( 10, 15, 31.00000000000000000, #244 ) ;
#62 = ORIENTED_EDGE ( 'NONE', *, *, #222, .T. ) ;
#63 = CARTESIAN_POINT ( 'NONE',  ( 0.000000000000000000, 0.000000000000000000, -12.69999999999999929 ) ) ;
#64 = CARTESIAN_POINT ( 'NONE',  ( 12.69999999999999574, 12.69999999999999574, 12.69999999999999929 ) ) ;
#65 = DIRECTION ( 'NONE',  ( -2.220446049250312588E-16, 1.000000000000000000, 0.000000000000000000 ) ) ;
#66 = VECTOR ( 'NONE', #295, 1000.000000000000000 ) ;
#67 = EDGE_CURVE ( 'NONE', #192, #261, #190, .T. ) ;
#68 = VERTEX_POINT ( 'NONE', #230 ) ;
#69 = LINE ( 'NONE', #42, #57 ) ;
#70 = CARTESIAN_POINT ( 'NONE',  ( 12.69999999999999929, 12.69999999999999929, 12.69999999999999929 ) ) ;
#71 = VECTOR ( 'NONE', #221, 1000.000000000000000 ) ;
#72 = EDGE_CURVE ( 'NONE', #272, #49, #26, .T. ) ;
#73 = PRODUCT ( 'N-SF1-BPBSC-25.4-1200-1600', 'N-SF1-BPBSC-25.4-1200-1600', '', ( #203 ) ) ;
#74 = PERSON_AND_ORGANIZATION ( #111, #27 ) ;
#75 = EDGE_LOOP ( 'NONE', ( #196, #6, #29 ) ) ;
#76 = VECTOR ( 'NONE', #169, 1000.000000000000000 ) ;
#77 = PERSON_AND_ORGANIZATION ( #111, #27 ) ;
#78 = LINE ( 'NONE', #3, #204 ) ;
#79 = PERSON_AND_ORGANIZATION ( #111, #27 ) ;
#80 = DIRECTION ( 'NONE',  ( -0.000000000000000000, 0.000000000000000000, 1.000000000000000000 ) ) ;
#81 = DATE_TIME_ROLE ( 'classification_date' ) ;
#82 = CARTESIAN_POINT ( 'NONE',  ( 12.69999999999999574, 12.69999999999999574, 12.69999999999999929 ) ) ;
#83 = MANIFOLD_SOLID_BREP ( '¾µÏ', #243 ) ;
#84 = APPROVAL_DATE_TIME ( #310, #183 ) ;
#85 = DIRECTION ( 'NONE',  ( 2.220446049250312588E-16, -1.000000000000000000, 0.000000000000000000 ) ) ;
#86 = DATE_AND_TIME ( #242, #181 ) ;
#87 = PRODUCT_RELATED_PRODUCT_CATEGORY ( 'detail', '', ( #73 ) ) ;
#88 = PERSON_AND_ORGANIZATION_ROLE ( 'design_supplier' ) ;
#89 = CARTESIAN_POINT ( 'NONE',  ( 12.69999999999999929, 12.69999999999999929, 12.69999999999999929 ) ) ;
#90 = CARTESIAN_POINT ( 'NONE',  ( -12.69999999999999751, -12.69999999999999929, -12.69999999999999929 ) ) ;
#91 = LINE ( 'NONE', #64, #76 ) ;
#92 = VECTOR ( 'NONE', #271, 1000.000000000000000 ) ;
#93 = DIRECTION ( 'NONE',  ( -2.220446049250312588E-16, 1.000000000000000000, 0.000000000000000000 ) ) ;
#94 = DIRECTION ( 'NONE',  ( 0.7071067811865475727, -0.7071067811865475727, 0.000000000000000000 ) ) ;
#95 = VERTEX_POINT ( 'NONE', #303 ) ;
#96 = CARTESIAN_POINT ( 'NONE',  ( 12.69999999999999929, -12.69999999999999929, 12.69999999999999929 ) ) ;
#97 = EDGE_CURVE ( 'NONE', #283, #68, #266, .T. ) ;
#98 = CARTESIAN_POINT ( 'NONE',  ( 12.69999999999999929, 12.69999999999999929, -12.69999999999999929 ) ) ;
#99 = ORIENTED_EDGE ( 'NONE', *, *, #117, .T. ) ;
#100 = DESIGN_CONTEXT ( 'detailed design', #134, 'design' ) ;
#101 = VECTOR ( 'NONE', #304, 1000.000000000000000 ) ;
#102 = EDGE_LOOP ( 'NONE', ( #62, #255, #121, #163 ) ) ;
#103 = DIRECTION ( 'NONE',  ( 1.000000000000000000, -2.220446049250312588E-16, 0.000000000000000000 ) ) ;
#104 = EDGE_CURVE ( 'NONE', #272, #225, #78, .T. ) ;
#105 = ORIENTED_EDGE ( 'NONE', *, *, #247, .T. ) ;
#106 = PLANE ( 'NONE',  #1 ) ;
#107 = DIRECTION ( 'NONE',  ( 1.000000000000000000, 0.000000000000000000, 0.000000000000000000 ) ) ;
#108 = LINE ( 'NONE', #186, #101 ) ;
#109 = LOCAL_TIME ( 10, 15, 31.00000000000000000, #286 ) ;
#110 = PERSON_AND_ORGANIZATION_ROLE ( 'creator' ) ;
#111 = PERSON ( 'UNSPECIFIED', 'UNSPECIFIED', 'UNSPECIFIED', ('UNSPECIFIED'), ('UNSPECIFIED'), ('UNSPECIFIED') ) ;
#112 = DATE_AND_TIME ( #34, #120 ) ;
#113 = UNCERTAINTY_MEASURE_WITH_UNIT (LENGTH_MEASURE( 1.000000000000000082E-05 ), #20, 'distance_accuracy_value', 'NONE');
#114 = ADVANCED_FACE ( 'NONE', ( #279 ), #53, .F. ) ;
#115 = CC_DESIGN_APPROVAL ( #206, ( #148 ) ) ;
#116 = DIRECTION ( 'NONE',  ( 0.000000000000000000, 0.000000000000000000, 1.000000000000000000 ) ) ;
#117 = EDGE_CURVE ( 'NONE', #225, #19, #147, .T. ) ;
#118 = CARTESIAN_POINT ( 'NONE',  ( -12.69999999999999751, -12.69999999999999929, 12.69999999999999929 ) ) ;
#119 = DIRECTION ( 'NONE',  ( -2.220446049250312588E-16, 1.000000000000000000, 0.000000000000000000 ) ) ;
#120 = LOCAL_TIME ( 10, 15, 31.00000000000000000, #212 ) ;
#121 = ORIENTED_EDGE ( 'NONE', *, *, #97, .F. ) ;
#122 = ORIENTED_EDGE ( 'NONE', *, *, #267, .F. ) ;
#123 = LINE ( 'NONE', #294, #171 ) ;
#124 = VECTOR ( 'NONE', #107, 1000.000000000000000 ) ;
#125 = ORIENTED_EDGE ( 'NONE', *, *, #97, .T. ) ;
#126 =( NAMED_UNIT ( * ) PLANE_ANGLE_UNIT ( ) SI_UNIT ( $, .RADIAN. ) );
#127 = CC_DESIGN_APPROVAL ( #183, ( #161 ) ) ;
#128 = ORIENTED_EDGE ( 'NONE', *, *, #176, .F. ) ;
#129 = DIRECTION ( 'NONE',  ( 0.000000000000000000, 0.000000000000000000, 1.000000000000000000 ) ) ;
#130 = AXIS2_PLACEMENT_3D ( 'NONE', #63, #18, #93 ) ;
#131 = CARTESIAN_POINT ( 'NONE',  ( -12.69999999999999574, -12.69999999999999396, 12.69999999999999929 ) ) ;
#132 = CARTESIAN_POINT ( 'NONE',  ( 12.69999999999999574, 12.69999999999999574, -12.69999999999999929 ) ) ;
#133 = PLANE ( 'NONE',  #305 ) ;
#134 = APPLICATION_CONTEXT ( 'configuration controlled 3d designs of mechanical parts and assemblies' ) ;
#135 = DIRECTION ( 'NONE',  ( 0.000000000000000000, 1.000000000000000000, 0.000000000000000000 ) ) ;
#136 = FACE_OUTER_BOUND ( 'NONE', #22, .T. ) ;
#137 = EDGE_LOOP ( 'NONE', ( #122, #281, #105, #150 ) ) ;
#138 = VECTOR ( 'NONE', #250, 1000.000000000000000 ) ;
#139 = EDGE_CURVE ( 'NONE', #8, #283, #313, .T. ) ;
#140 = CC_DESIGN_APPROVAL ( #291, ( #21 ) ) ;
#141 = PERSON_AND_ORGANIZATION ( #111, #27 ) ;
#142 = ADVANCED_BREP_SHAPE_REPRESENTATION ( 'N-SF1-BPBSC-25.4-1200-1600', ( #297, #83, #317 ), #14 ) ;
#143 = ORIENTED_EDGE ( 'NONE', *, *, #30, .F. ) ;
#144 = CARTESIAN_POINT ( 'NONE',  ( -12.69999999999999574, -12.69999999999999396, 12.69999999999999929 ) ) ;
#145 = DIRECTION ( 'NONE',  ( -0.7071067811865475727, 0.7071067811865475727, 0.000000000000000000 ) ) ;
#146 = EDGE_CURVE ( 'NONE', #68, #156, #13, .T. ) ;
#147 = LINE ( 'NONE', #199, #41 ) ;
#148 = PRODUCT_DEFINITION_FORMATION_WITH_SPECIFIED_SOURCE ( 'ANY', '', #73, .NOT_KNOWN. ) ;
#149 = FACE_OUTER_BOUND ( 'NONE', #179, .T. ) ;
#150 = ORIENTED_EDGE ( 'NONE', *, *, #72, .T. ) ;
#151 = ADVANCED_FACE ( 'NONE', ( #219 ), #248, .F. ) ;
#152 = CARTESIAN_POINT ( 'NONE',  ( 12.69999999999999574, 12.69999999999999574, 12.69999999999999929 ) ) ;
#153 = VECTOR ( 'NONE', #35, 1000.000000000000114 ) ;
#154 = ORIENTED_EDGE ( 'NONE', *, *, #146, .T. ) ;
#155 = CARTESIAN_POINT ( 'NONE',  ( -12.69999999999999751, -12.69999999999999929, 12.69999999999999929 ) ) ;
#156 = VERTEX_POINT ( 'NONE', #90 ) ;
#157 = APPROVAL_STATUS ( 'not_yet_approved' ) ;
#158 = ORIENTED_EDGE ( 'NONE', *, *, #174, .F. ) ;
#159 = CARTESIAN_POINT ( 'NONE',  ( 0.000000000000000000, 0.000000000000000000, 0.000000000000000000 ) ) ;
#160 = CARTESIAN_POINT ( 'NONE',  ( 0.000000000000000000, 0.000000000000000000, -12.69999999999999929 ) ) ;
#161 = SECURITY_CLASSIFICATION ( '', '', #31 ) ;
#162 = ORIENTED_EDGE ( 'NONE', *, *, #247, .F. ) ;
#163 = ORIENTED_EDGE ( 'NONE', *, *, #30, .T. ) ;
#164 = CC_DESIGN_PERSON_AND_ORGANIZATION_ASSIGNMENT ( #141, #110, ( #148 ) ) ;
#165 = CARTESIAN_POINT ( 'NONE',  ( 12.69999999999999574, 12.69999999999999574, 12.69999999999999929 ) ) ;
#166 = APPROVAL_ROLE ( '' ) ;
#167 = ADVANCED_FACE ( 'NONE', ( #217 ), #314, .F. ) ;
#168 = DIRECTION ( 'NONE',  ( -1.000000000000000000, 0.000000000000000000, 0.000000000000000000 ) ) ;
#169 = DIRECTION ( 'NONE',  ( 1.000000000000000000, -2.220446049250312588E-16, 0.000000000000000000 ) ) ;
#170 = CC_DESIGN_DATE_AND_TIME_ASSIGNMENT ( #10, #32, ( #21 ) ) ;
#171 = VECTOR ( 'NONE', #65, 1000.000000000000000 ) ;
#172 = CARTESIAN_POINT ( 'NONE',  ( 12.69999999999999929, -12.69999999999999929, -12.69999999999999929 ) ) ;
#173 = DIRECTION ( 'NONE',  ( -0.7071067811865474617, -0.7071067811865474617, 0.000000000000000000 ) ) ;
#174 = EDGE_CURVE ( 'NONE', #49, #319, #224, .T. ) ;
#175 = ORIENTED_EDGE ( 'NONE', *, *, #139, .F. ) ;
#176 = EDGE_CURVE ( 'NONE', #319, #95, #123, .T. ) ;
#177 = LINE ( 'NONE', #231, #251 ) ;
#178 = ORIENTED_EDGE ( 'NONE', *, *, #222, .F. ) ;
#179 = EDGE_LOOP ( 'NONE', ( #44, #143, #175, #276 ) ) ;
#180 = CARTESIAN_POINT ( 'NONE',  ( 0.000000000000000000, 0.000000000000000000, 12.69999999999999929 ) ) ;
#181 = LOCAL_TIME ( 10, 15, 31.00000000000000000, #262 ) ;
#182 = PERSON_AND_ORGANIZATION_ROLE ( 'creator' ) ;
#183 = APPROVAL ( #237, 'UNSPECIFIED' ) ;
#184 = CARTESIAN_POINT ( 'NONE',  ( 12.69999999999999574, 12.69999999999999574, -12.69999999999999929 ) ) ;
#185 = CLOSED_SHELL ( 'NONE', ( #151, #296, #235, #254, #114 ) ) ;
#186 = CARTESIAN_POINT ( 'NONE',  ( -12.70000000000000284, 12.70000000000000284, 12.69999999999999929 ) ) ;
#187 = CALENDAR_DATE ( 2021, 5, 1 ) ;
#188 = LINE ( 'NONE', #89, #320 ) ;
#189 = SHAPE_DEFINITION_REPRESENTATION ( #229, #142 ) ;
#190 = LINE ( 'NONE', #284, #191 ) ;
#191 = VECTOR ( 'NONE', #58, 1000.000000000000000 ) ;
#192 = VERTEX_POINT ( 'NONE', #172 ) ;
#193 = EDGE_CURVE ( 'NONE', #8, #192, #249, .T. ) ;
#194 = PLANE ( 'NONE',  #213 ) ;
#195 = CARTESIAN_POINT ( 'NONE',  ( 12.69999999999999574, 12.69999999999999574, -12.69999999999999929 ) ) ;
#196 = ORIENTED_EDGE ( 'NONE', *, *, #174, .T. ) ;
#197 = DIRECTION ( 'NONE',  ( -0.7071067811865475727, -0.7071067811865475727, 0.000000000000000000 ) ) ;
#198 = ORIENTED_EDGE ( 'NONE', *, *, #315, .T. ) ;
#199 = CARTESIAN_POINT ( 'NONE',  ( -12.69999999999999574, -12.69999999999999396, 12.69999999999999929 ) ) ;
#200 = CC_DESIGN_PERSON_AND_ORGANIZATION_ASSIGNMENT ( #241, #60, ( #161 ) ) ;
#201 = DIRECTION ( 'NONE',  ( 1.000000000000000000, 0.000000000000000000, 0.000000000000000000 ) ) ;
#202 = EDGE_LOOP ( 'NONE', ( #125, #198, #263 ) ) ;
#203 = MECHANICAL_CONTEXT ( 'NONE', #269, 'mechanical' ) ;
#204 = VECTOR ( 'NONE', #11, 999.9999999999998863 ) ;
#205 = EDGE_LOOP ( 'NONE', ( #158, #257, #274, #56 ) ) ;
#206 = APPROVAL ( #9, 'UNSPECIFIED' ) ;
#207 = CALENDAR_DATE ( 2021, 5, 1 ) ;
#208 = APPROVAL_PERSON_ORGANIZATION ( #7, #183, #308 ) ;
#209 = PLANE ( 'NONE',  #292 ) ;
#210 = DIRECTION ( 'NONE',  ( 1.000000000000000000, 0.000000000000000000, 0.000000000000000000 ) ) ;
#211 = FACE_OUTER_BOUND ( 'NONE', #137, .T. ) ;
#212 = COORDINATED_UNIVERSAL_TIME_OFFSET ( 8, 0, .AHEAD. ) ;
#213 = AXIS2_PLACEMENT_3D ( 'NONE', #70, #168, #268 ) ;
#214 = DIRECTION ( 'NONE',  ( -0.000000000000000000, -0.000000000000000000, -1.000000000000000000 ) ) ;
#215 = CC_DESIGN_DATE_AND_TIME_ASSIGNMENT ( #112, #81, ( #161 ) ) ;
#216 = CARTESIAN_POINT ( 'NONE',  ( 12.69999999999999929, 12.69999999999999929, 12.69999999999999929 ) ) ;
#217 = FACE_OUTER_BOUND ( 'NONE', #75, .T. ) ;
#218 = AXIS2_PLACEMENT_3D ( 'NONE', #160, #80, #259 ) ;
#219 = FACE_OUTER_BOUND ( 'NONE', #102, .T. ) ;
#220 = AXIS2_PLACEMENT_3D ( 'NONE', #39, #145, #12 ) ;
#221 = DIRECTION ( 'NONE',  ( -0.000000000000000000, -0.000000000000000000, -1.000000000000000000 ) ) ;
#222 = EDGE_CURVE ( 'NONE', #261, #156, #69, .T. ) ;
#223 = ORIENTED_EDGE ( 'NONE', *, *, #117, .F. ) ;
#224 = LINE ( 'NONE', #195, #311 ) ;
#225 = VERTEX_POINT ( 'NONE', #273 ) ;
#226 = CC_DESIGN_SECURITY_CLASSIFICATION ( #161, ( #148 ) ) ;
#227 = APPLICATION_PROTOCOL_DEFINITION ( 'international standard', 'config_control_design', 1994, #269 ) ;
#228 = COORDINATED_UNIVERSAL_TIME_OFFSET ( 8, 0, .AHEAD. ) ;
#229 = PRODUCT_DEFINITION_SHAPE ( 'NONE', 'NONE',  #21 ) ;
#230 = CARTESIAN_POINT ( 'NONE',  ( -12.69999999999999751, -12.69999999999999929, 12.69999999999999929 ) ) ;
#231 = CARTESIAN_POINT ( 'NONE',  ( -12.69999999999999751, -12.69999999999999929, 12.69999999999999929 ) ) ;
#232 = DIRECTION ( 'NONE',  ( 0.000000000000000000, 0.000000000000000000, -1.000000000000000000 ) ) ;
#233 = ADVANCED_FACE ( 'NONE', ( #46 ), #270, .F. ) ;
#234 = DIRECTION ( 'NONE',  ( 0.000000000000000000, -0.000000000000000000, 1.000000000000000000 ) ) ;
#235 = ADVANCED_FACE ( 'NONE', ( #149 ), #194, .F. ) ;
#236 = CARTESIAN_POINT ( 'NONE',  ( -12.69999999999999751, -12.69999999999999929, -12.69999999999999929 ) ) ;
#237 = APPROVAL_STATUS ( 'not_yet_approved' ) ;
#238 = VECTOR ( 'NONE', #232, 1000.000000000000000 ) ;
#239 = CARTESIAN_POINT ( 'NONE',  ( 12.69999999999999929, -12.69999999999999929, 12.69999999999999929 ) ) ;
#240 = CC_DESIGN_PERSON_AND_ORGANIZATION_ASSIGNMENT ( #77, #182, ( #21 ) ) ;
#241 = PERSON_AND_ORGANIZATION ( #111, #27 ) ;
#242 = CALENDAR_DATE ( 2021, 5, 1 ) ;
#243 = CLOSED_SHELL ( 'NONE', ( #233, #5, #55, #275, #167 ) ) ;
#244 = COORDINATED_UNIVERSAL_TIME_OFFSET ( 8, 0, .AHEAD. ) ;
#245 = EDGE_CURVE ( 'NONE', #225, #319, #37, .T. ) ;
#246 = ORIENTED_EDGE ( 'NONE', *, *, #245, .F. ) ;
#247 = EDGE_CURVE ( 'NONE', #19, #272, #91, .T. ) ;
#248 = PLANE ( 'NONE',  #59 ) ;
#249 = LINE ( 'NONE', #96, #66 ) ;
#250 = DIRECTION ( 'NONE',  ( -0.000000000000000000, 1.000000000000000000, -0.000000000000000000 ) ) ;
#251 = VECTOR ( 'NONE', #210, 1000.000000000000000 ) ;
#252 = CARTESIAN_POINT ( 'NONE',  ( 12.69999999999999929, 12.69999999999999929, 12.69999999999999929 ) ) ;
#253 = FACE_OUTER_BOUND ( 'NONE', #316, .T. ) ;
#254 = ADVANCED_FACE ( 'NONE', ( #40 ), #321, .T. ) ;
#255 = ORIENTED_EDGE ( 'NONE', *, *, #146, .F. ) ;
#256 = CARTESIAN_POINT ( 'NONE',  ( 12.69999999999999929, 12.69999999999999929, 12.69999999999999929 ) ) ;
#257 = ORIENTED_EDGE ( 'NONE', *, *, #72, .F. ) ;
#258 = DIRECTION ( 'NONE',  ( 1.000000000000000000, 0.000000000000000000, 0.000000000000000000 ) ) ;
#259 = DIRECTION ( 'NONE',  ( 1.000000000000000000, 0.000000000000000000, 0.000000000000000000 ) ) ;
#260 = FACE_OUTER_BOUND ( 'NONE', #300, .T. ) ;
#261 = VERTEX_POINT ( 'NONE', #98 ) ;
#262 = COORDINATED_UNIVERSAL_TIME_OFFSET ( 8, 0, .AHEAD. ) ;
#263 = ORIENTED_EDGE ( 'NONE', *, *, #139, .T. ) ;
#264 = PERSON_AND_ORGANIZATION ( #111, #27 ) ;
#265 = APPROVAL_PERSON_ORGANIZATION ( #79, #291, #280 ) ;
#266 = LINE ( 'NONE', #216, #153 ) ;
#267 = EDGE_CURVE ( 'NONE', #95, #49, #299, .T. ) ;
#268 = DIRECTION ( 'NONE',  ( 0.000000000000000000, 0.000000000000000000, 1.000000000000000000 ) ) ;
#269 = APPLICATION_CONTEXT ( 'configuration controlled 3d designs of mechanical parts and assemblies' ) ;
#270 = PLANE ( 'NONE',  #220 ) ;
#271 = DIRECTION ( 'NONE',  ( 0.000000000000000000, 0.000000000000000000, -1.000000000000000000 ) ) ;
#272 = VERTEX_POINT ( 'NONE', #152 ) ;
#273 = CARTESIAN_POINT ( 'NONE',  ( -12.69999999999999574, -12.69999999999999396, 12.69999999999999929 ) ) ;
#274 = ORIENTED_EDGE ( 'NONE', *, *, #104, .T. ) ;
#275 = ADVANCED_FACE ( 'NONE', ( #253 ), #54, .T. ) ;
#276 = ORIENTED_EDGE ( 'NONE', *, *, #193, .T. ) ;
#277 = AXIS2_PLACEMENT_3D ( 'NONE', #28, #52, #278 ) ;
#278 = DIRECTION ( 'NONE',  ( -2.220446049250312588E-16, 1.000000000000000000, 0.000000000000000000 ) ) ;
#279 = FACE_OUTER_BOUND ( 'NONE', #47, .T. ) ;
#280 = APPROVAL_ROLE ( '' ) ;
#281 = ORIENTED_EDGE ( 'NONE', *, *, #17, .F. ) ;
#282 = CALENDAR_DATE ( 2021, 5, 1 ) ;
#283 = VERTEX_POINT ( 'NONE', #256 ) ;
#284 = CARTESIAN_POINT ( 'NONE',  ( 12.69999999999999929, 12.69999999999999929, -12.69999999999999929 ) ) ;
#285 = PERSON_AND_ORGANIZATION ( #111, #27 ) ;
#286 = COORDINATED_UNIVERSAL_TIME_OFFSET ( 8, 0, .AHEAD. ) ;
#287 = AXIS2_PLACEMENT_3D ( 'NONE', #180, #306, #201 ) ;
#288 = DIRECTION ( 'NONE',  ( 0.000000000000000000, 0.000000000000000000, 1.000000000000000000 ) ) ;
#289 = CC_DESIGN_PERSON_AND_ORGANIZATION_ASSIGNMENT ( #285, #88, ( #148 ) ) ;
#290 = DIRECTION ( 'NONE',  ( 0.7071067811865474617, 0.7071067811865474617, 0.000000000000000000 ) ) ;
#291 = APPROVAL ( #157, 'UNSPECIFIED' ) ;
#292 = AXIS2_PLACEMENT_3D ( 'NONE', #131, #312, #116 ) ;
#293 = ORIENTED_EDGE ( 'NONE', *, *, #45, .F. ) ;
#294 = CARTESIAN_POINT ( 'NONE',  ( -12.69999999999999574, -12.69999999999999396, -12.69999999999999929 ) ) ;
#295 = DIRECTION ( 'NONE',  ( -0.000000000000000000, -0.000000000000000000, -1.000000000000000000 ) ) ;
#296 = ADVANCED_FACE ( 'NONE', ( #260 ), #106, .F. ) ;
#297 = MANIFOLD_SOLID_BREP ( 'Í¹Ì¨-À', #185 ) ;
#298 = ORIENTED_EDGE ( 'NONE', *, *, #193, .F. ) ;
#299 = LINE ( 'NONE', #132, #38 ) ;
#300 = EDGE_LOOP ( 'NONE', ( #16, #298, #24, #154 ) ) ;
#301 = ORIENTED_EDGE ( 'NONE', *, *, #17, .T. ) ;
#302 = APPROVAL_DATE_TIME ( #4, #291 ) ;
#303 = CARTESIAN_POINT ( 'NONE',  ( -12.70000000000000284, 12.70000000000000284, -12.69999999999999929 ) ) ;
#304 = DIRECTION ( 'NONE',  ( 0.000000000000000000, 0.000000000000000000, -1.000000000000000000 ) ) ;
#305 = AXIS2_PLACEMENT_3D ( 'NONE', #82, #85, #288 ) ;
#306 = DIRECTION ( 'NONE',  ( -0.000000000000000000, 0.000000000000000000, 1.000000000000000000 ) ) ;
#307 = CARTESIAN_POINT ( 'NONE',  ( -12.70000000000000284, 12.70000000000000284, 12.69999999999999929 ) ) ;
#308 = APPROVAL_ROLE ( '' ) ;
#309 = LINE ( 'NONE', #236, #124 ) ;
#310 = DATE_AND_TIME ( #187, #61 ) ;
#311 = VECTOR ( 'NONE', #197, 999.9999999999998863 ) ;
#312 = DIRECTION ( 'NONE',  ( 1.000000000000000000, -2.220446049250312588E-16, 0.000000000000000000 ) ) ;
#313 = LINE ( 'NONE', #15, #138 ) ;
#314 = PLANE ( 'NONE',  #130 ) ;
#315 = EDGE_CURVE ( 'NONE', #68, #8, #177, .T. ) ;
#316 = EDGE_LOOP ( 'NONE', ( #318, #162, #223 ) ) ;
#317 = AXIS2_PLACEMENT_3D ( 'NONE', #159, #129, #258 ) ;
#318 = ORIENTED_EDGE ( 'NONE', *, *, #104, .F. ) ;
#319 = VERTEX_POINT ( 'NONE', #25 ) ;
#320 = VECTOR ( 'NONE', #214, 1000.000000000000000 ) ;
#321 = PLANE ( 'NONE',  #287 ) ;
ENDSEC;
END-ISO-10303-21;
